Posted by Niko Ramone | File under :



------- Introduccion Guitarra ( Punteado ) ---------

----------------------------------------------------
----------------------------------------------------
----------------------------------------------------
---------------7-7-7-7-7-7--------------------------
-5-9-5-7-9-7-5-5-5-5-5-5-5-5-9-5-7-7-9-5-5-5-5-5-5--
-----------------------------------------3-3-3-3-3--


-----------------------------------------------------
-----------------------------------------------------
-----------------------------------------------------
-----------------7-7-------7-7-----------------------
-7---------------5-5-7-9-7-5-5-9-5-7-7-9-7-5-5-5-5-5-
-5-5-9-5-7-9-7-5---------------------------3-3-3-3-3-


-----------------
-----------------
-----------------
--------------7--
7-7-7-7-7-7-7-5--
5-5-5-5-5-5-5----


-------- Fin Introduccion ----------

D                      G        A
Me encontre una chica en la plaaaza
D                  G          A
Estaba llorando yo no se porque
D             G          A
Tenia una petaca de Ginebra Bols
D            G           A
y yo entonces me acerque ohh ohh oh

[D-G-C-A]

Yo le Pregunte que le pasaba
y ella me conto todo su rollo personal
que tenia un novio que se llamaba Antonio
que habia muerto en la guerra de las Malvinas oh

[D-G-C-A]

El tiempo corria y la petaca bajaba
ella me dio un beso y se despidio
camino unos pasos y un arma sacó
yo le pregunte nena que vas a hacer
no me respondio y el gatillo ella apreto

[D-G-C-A]

Ella se voló la cabeza por viejo amor
Ella se voló la cabeza por muerto amor
Ella se voló la cabeza por viejo amor
Ella se voló la cabeza por muerto amor