Posted by Niko Ramone | File under :



INTRO

e|------------------------|
B|------------------------|
G|------------------------|
D|--4-4-4-2-0-2-0-2-4-----|
A|------------------------|
E|------------------------|

e|------------------------|
B|------------------------|
G|------------------2-----|
D|--4-4-4-2-0-2-0-2-------|
A|------------------------|
E|------------------------|

e|------------------------|
B|------------------------|
G|------------------------|
D|--4-4-4-2-0-2-0-2-4-----|
A|------------------------|
E|------------------------|

e|------------------------|
B|----------7-------------|
G|------7h9-9b(11)--------|
D|--4/9-------------------|
A|------------------------|
E|------------------------|

RIFF 1

e|----------------------------------|
B|----------------------------------|
G|------2-----2-----2-----2---------|
D|--2H4---2H4---2H4---2H4-----------|
A|----------------------------------|
E|----------------------------------|

RIFF 2

e|----------------------------------|
B|----------3-5-5B7P5---------------|
G|------2-4-----------4-------------|
D|--2H4-----------------------------|
A|----------------------------------|
E|----------------------------------|

RIFF 3

e|----------------------------------|
B|----7------7------7------7--------|
G|----9b(11)-9b(11)-9b(11)-9b(11)---|
D|----------------------------------|
A|----------------------------------|
E|----------------------------------|


B
Bajan los cambas,
                 RIFF 1
Con su cargamento
B                      D
De peyote para mi ciudad
B
Yo me pregunto
                      RIFF 2
A donde esta mi pueblo
B                                RIFF 3 X8
Donde esta, mi pueblo adonde esta


B
Baja el miedo
                RIFF 1
con el emfermero,
B
Somos como bomba
         D
de trapax
B
Nuestros ojos
                 RIFF 2
cortan como facas
B
Donde esta el faso a donde esta

B


e|------------------------|
B|------------------------|
G|------------------------|
D|--4-4-4-2-0-2-0-2-4-----|
A|------------------------|
E|------------------------|

e|------------------------|
B|------------------------|
G|------------------2-----|
D|--4-4-4-2-0-2-0-2-------|
A|------------------------|
E|------------------------|

e|------------------------|
B|------------------------|
G|------------------------|
D|--4-4-4-2-0-2-0-2-4-----|
A|------------------------|
E|------------------------|

e|------------------------|
B|----------7-------------|
G|------7h9-9b(11)--------|
D|--4/9-------------------|
A|------------------------|
E|------------------------|

B
Corre la sangre
                 RIFF 1
entre los herejes
B
de blasfemias
                D
se quieren hartar
B
angeles tenga
                   RIFF 2
el dia de mi muerte
B
ellos me vienen

a buscar

B




B
Corre la sangre

entre los herejes
B
de blasfemias

se quieren hartar
B
angeles tenga

el dia de mi muerte
B
ellos me vienen

a buscar.

B
A BUSCAR
B        B
ELLOS ME VIENEN A BUSCAR


e|---------------------------------|
B|---------------------------------|
G|---------------------------------|
D|---------------------------------|
A|--0-2-0-5-0-2-0-5-0-2-0-5-0-2-0-5|
E|---------------------------------|

TERMINA EN B