Posted by Niko Ramone | File under :



INTRO:

      P.M            P.M
e-|--------------------------------|
B-|--------------------------------|
G-|--------------------------------|   P.M= palm mute
D-|-----------------------------7~-|    ~= vibrato
A-|-9-9-9-9-9-9-9-9-9-9-9-9-9-10---|
E-|--------------------------------|

       P.M            P.M
e-|---------------------------------|-DESPUES---|---|
B-|---------------------------------|-DE UN PAR-|---|
G-|---------------------------------|-DE VECES--|-9~|
D-|---------------------------------|-TERMINA---|-9~|
A-|-9-9-9-9-9-9-9-9-9-9-9-9-9-10-7~-|-HACIENDO--|-7~|
E-|---------------------------------|-----------|---|

A5                D5
Miren que paso! que que que
A5                D5
Miren que paso! que que que
A5                D5
Miren que paso! que que que
A5          D5  RIFF
Miren que paso!


A
Se rompio mi barrilete
D               E
yo tanto lo queria
A
Se rompio mi barrilete
D              E
yo tanto lo queria

El muy alto volaba
Yo tanto lo queria
Tenia muchos colores
desde el cielo se veia

Se lo preste al coke
y el no me lo enganchaba
y al caer del árbol
Un auto le pasaba

A5                  D5
Y Miren que paso! que que que
A5                  D5
Miren que paso! que que que
A5                  D5
Miren que paso! que que que
A5         D5  RIFF
Miren que paso!

SE REPITE EL VERSO Y DESPUES:

A5
Se rompio mi barrilete
D5              E5
yo tanto lo queria
A5
Se rompio mi barrilete
D5             E5
yo tanto lo queria

RIFF:
e-|--------------------------------|
B-|--------------------------------|
G-|-7-/-9-/-11/-12-/11-/-9-/-7--7--|
D-|-X---X---X---X----X---X---X--7--|
A-|-5-/-7-/-9-/-10-/-9-/-7-/-5--5--|
E-|--------------------------------|

AGUANTE EL PUNK ROCK!
LUIS_DAMMIT