Posted by Niko Ramone | File under :



Intro: A C# F#  C# - D (X4)

Puente1                    Puente2
e|------------------------|------------------------|
B|------------------------|------------------------|
G|------------------------|------------------------|
D|------------------------|---------------------7--|
A|--4/5-4/5-4/5-4/5--4-0--|--4/5-4/5-4/5-4/5--4----|
E|------------------------|------------------------|

Puente3
e|-----------------------------|
B|-----------------------------|
G|-----------------------------|
D|-----------------------------|
A|-------------5---5---5-7-----|
E|-0--0-3-5-5----5---5-------0-|

Este es el camino             Puente1
Es tan duro como lo ves       Puente2
Burlando los controles        Puente1
                             C#  -  D
Buscando alguien que no existe no,no.

A   C#    F#   C# - D
Nadie sabra jamas
Como es mi mi soledad
Debo salir de aquí
No seguir cayendo

Este es nuestro enlace       Puente1
Es tan fragil como lo ves    Puente2
LA red envuelve A todos      Puente1
                 C#  -  D
Un mundo imaginario

A   C#    F#   C# - D
Nadie sabra jamas
Como es mi soledad
Debo salir de aquí
No seguir cayendo

Puente3 X2  -  C# - D

Solo

e|-----------------------------------------
B|-----------------------------------------
G|-----------------------------------------
D|-7-77-9-(11)(11)-9-(11)(11)-(12)-(11)-9--
A|----------------------------------------- X2
E|-----------------------------------------

e|--------------------------------|
B|--------------------------------|
G|---999---999---999--7-6-7-------|
D|-7----777---777---7-------9--7--|
A|--------------------------------| X2
E|--------------------------------|

                  C# D A
Este es el camino
Es tan fragil como lo ves
Medias rotas,zapatos claros
                               C# - D
Buscando gente que no existe no,no

A   C#    F#   C# - D
Nadie sabra jamas
Como es mi mi soledad
Debo salir de aquí
No seguir cayendo

Puente3 (x3)

Solo

A D

A