Posted by Niko Ramone | File under :




A
Este es el ocaso

E
del que todos hablan

F#m                 D  Dm
ya no hay nada para ver

A
te sentis esclavo

E
de este rey tirano

F#m                 D  Dm
que se adueña de tu ser


(En esta parte la 2da guitarra hace acordes de quinta)

A    
si tus manos sudan (Riff1)

E
contamina el aire  [Riff2]

F#m                 D  Dm
no hay espacio, ni valés

A
Estas atrapado

E
entre las montañas

F#m                 D  Dm
no hay oxigeno esta vez

Estribillo:

B              
pero enloquecido

E
ya no hay mas amigos

F#m                      D  Dm
que discutan si esta bien

B
suena ese vinilo

E
que ya dio mil vueltas

G
hoy parece va a llover



La otra parte es toda igual pero la 2da guitarra hace acordes de 5ta con sordina 
y sin distorcion.



SOLO(Sobre los acordes A5,E5,F#5,D5)



1|--------------------------------------------------------------------------------
2|--------------------------------------------------------------------------------
3|---4-2-4-2-4-4/6-4-2-2---4-2-4-2-4-4/6-4-2-2---4-2-4-2-4-4/6-4------------------
4|-----------------------2--------------------4------------------7-4-4-7-7-4-7(x2)  
5|--------------------------------------------------------------------------------
6|--------------------------------------------------------------------------------


1|----------------------------------------------5-7-5-7-5-7b----------------------
2|------------------------------------------5-7-----------------------------------
3|---6b-2-2-4-6b-4-2-6b-2-4-6-6b--------------------------------------------------
4|--------------------------------------------------------------------------------
5|--------------------------------------------------------------------------------
6|--------------------------------------------------------------------------------


b: significa estirar para arriba




(Riff1):

5|-----4-5-2
6|---5------


(Riff2):

5|---5-4-2-2-4--
6|-------------5