Posted by Niko Ramone | File under :



Intro:    Em       D      A
        e|--------------------------
        b|--------------------------
        g|--------------------------
        D|---5-4~---2--5-4-4^2-4-5--   (x2)
        A|--2--------2--------------
        E|-0------------------------

Em                           A         Am
 Desde un rincón del olvido, solo en su jaula…
Em                        A         Am
 desde el infierno mismo donde no debía estar… 
C#m           D            C#m            D
 Que será lo que te impide oír, tan claro como el agua, 
C#m             D            A           Am
 que el pájaro canta hasta morir, su melodía sin fin, 


Em                         A           Am
 Como esas cosas lujosas que hay en tu casa…
Em                       A         Am
 que nunca pueden llenar tu vacío existencial… 
C#m         D          C#m          D
 Que ironía del destino es haber nacido con alas 
C#m          D            A        Am
 y mirar al cielo desde ahí…una tortura cruel… 


G                        F
 Hay una espina clavada profundo en mi ser, 
Am                         C
 en mi costado izquierdo ahí…a donde late mi fe… 
G                      F
 Solo duele cuando río, como indicándome 
Am                  C                             Em
 que nunca seremos libres, mientras que no lo sea él, 


(Intro)


que nos hace creernos tan importantes 

como si el ser humano fuese lo único esencial 

Un capricho egoísta y ya justificamos la causa, 

la desgracia de un pobre animal, tu pobre felicidad…  


G                        F
 Hay una espina clavada profundo en mi ser, 
Am                         C
 en mi costado izquierdo ahí…a donde late mi fe… 
G                      F
 Solo duele cuando río, como indicándome 
Am                  C                             Em
 que nunca seremos libres, mientras que no lo sea él...


Solo: 
e|-----------------------------------------------------
b|--8-7---8-7------/10-8-7----8-7---8-7-----/10-8-7-8--
g|-----9-------/6----------9-----9-------/6------------
D|-9----9----9---------------9----9----9---------------
A|-----------------------------------------------------
E|-----------------------------------------------------

e|----------------------------------------------------10-10-----10-10-----10-10-----10-10-------
b|--12-10----------12-10----------12-10----------12-12-----12-12-----12-12-----12-12-----12(14)-
g|-9-----12-11-9--9-----12-11-9--9-----12-11-9--9-----------------------------------------------
D|----------------------------------------------------------------------------------------------
A|----------------------------------------------------------------------------------------------
E|----------------------------------------------------------------------------------------------

G                        F
 Hay una espina clavada profundo en mi ser, 
Am                         C
 en mi costado izquierdo ahí…a donde late mi fe… 
G                      F
 Solo duele cuando río, como indicándome 
Am                  C                             Em
 que nunca seremos libres, mientras que no lo sea él...  

(intro)

uh, uh, uh, uh...   (wah-wah sobre acordes de intro)