Posted by Niko Ramone | File under :



Intro en Base A5-B5-D5-E5 x2

1|-------------------------------------------------------------|
2|-------------------------------------------------------------|
3|-------------------------------------------------------------|
4|-5/7-6-4-2-4-2-2h4-2-----------------------------------------|
5|---------------------3h5-3-----------------------------------|
6|---------------------------55~--5/7-77/9-99/10-1010/9-9/7-5~-|

1|----------------------------------------------------------------|
2|----------------------------------------------------------------|
3|----------------------------------------------------------------|
4|-7~-5/7-6-9-2-4-2-2h4-2-----------------------------------------|
5|------------------------3h5-3-----------------------------------|
6|------------------------------55~--5/7-77/9-99/10-1010/9-9/7-5~-|

VERSO (En Palm Mute)

A                B
 Legaron con pasion
               D
 traian entre manos
                  E
 esperanza y energia
A                       B
 con lluvia y bajo el sol
                 D
 sembraron esta tierra
                   E
 de ilusiones y familias


ESTRIBILLO

D                 E               C#
 Y hablar de emigrar sonaba tan mal
               D          E
 la gente  queria vivir aca

VERSO

Hoy la historia no es igual
de aquella situacion quedaron
fotos amarillas

Ayer vi a mas de 10
tratando de comer
de la basura de la esquina

ESTRIBILLO

Y hablar de emigrar
no es tan anormal
es tan complicado vivir aca

1|-------------------------------------------------------------|
2|-------------------------------------------------------------|
3|-------------------------------------------------------------|
4|-5/7-6-4-2-4-2-2h4-2-----------------------------------------|
5|---------------------3h5-3-----------------------------------|
6|---------------------------55~--5/7-77/9-99/10-1010/9-9/7-5~-|

1|----------------------------------------------------------------|
2|----------------------------------------------------------------|
3|----------------------------------------------------------------|
4|-7~-5/7-6-9-2-4-2-2h4-2-----------------------------------------|
5|------------------------3h5-3-----------------------------------|
6|------------------------------55~--5/7-77/9-99/10-1010/9-9/7-5~-|

VERSO

Extraño al que se fue
admiro al que se queda aun
y entiendo al que se iria

Dificil caminar va a ser
para estos comediantes
que se roban la alegria

ESTRIBILLO

Y hablar de emigrar
sonaba tan mal
la gente queria vivir aca!

A5-B5-D5-E5 x4 y cuando termina d hacerlo x 2da vez
hace esto d fondo:

1|-------------------------------------------------------------|
2|-------------------------------------------------------------|
3|-------------------------------------------------------------|
4|-5/7-6-4-2-4-2-2h4-2-----------------------------------------|
5|---------------------3h5-3-----------------------------------|
6|---------------------------55~--5/7-77/9-99/10-1010/9-9/7-5~-|

Repite A5-B5-D5-E5 una vez mas y termina con A5