Posted by Niko Ramone | File under :



Intro: E5-A5 B5(x4) + Riff 1 (x4)

  E5*             A5*    B5*
1)Hay una bomba en el colegio
  E5*           A5*   B5*
  pronto, todos a correr
  E5*                       A5*         B5*
  El cuadro de Sarmiento tirado en el suelo
  E5*        A5     B5
  y tu pollera también

  G5                   C5       D5
2)Pronto aprovechemos la confusión
  G5        C5   D5
  y hagamos el amor
  G5                 C5   D5
  No, no insistas con el baño
  G5*                    A5*
  debajo del pupitre es mucho mejor

Inter: E5-A5 B5(x2) + Riff 1 (x2)

1)Botas Kickers pateándome los huevos
  y tus libros tirados en el suelo
  En el patio la maestra grita
  y nosotros dos cogemos

2)Nunca imaginaste estar así
  todos afuera y nosotros aquí
  El colegio va a explotar
  y nosotros vamos a acabar

Inter: E5-A5-B5 (x2) + Riff 1 (x2)
       G5-C5-D5 (x2) + Riff 2 (x2)

1)Falsa alarma en el colegio
  pronto, todos a su lugar
  la bomba era un invento,
  pero nosotros explotamos igual


2)¡Qué vergüenza! ¡Qué ejemplo!
  Nos atraparon en ese momento
  qué dirán mamá y papá
  mejor nos vamos de la ciudad

Inter: Riff 1-----> primer gtr. sola (sin acompañamiento)
       E5-A5-B5 + Riff 1

E5             A5    B5
Días de escuela...
E5             A5    B5
Días de escuela no, no, no, no
E5             A5    B5
Días de escuela, uh yeah
E5             A5    B5
Días de escuela...
E5             A5    B5
Días de escuela, yeah yeah yeah yeah yeah
E5             A5    B5
Días de escuela, yeah yeah yeah yeah yeah
E5             A5    B5
Días de escuela, yeah yeah yeah yeah yeah
E5             A5    B5 (B5-A5) (E5......)
Días de escuela...

-------------------------------------
-------------------------------------

Riff 1:

e|---------------------------------|
B|-5-5-----5-5-----5-5-4-4-2-2-4-4-|
G|-----4-4-----4-4-----------------|
D|---------------------------------|
A|---------------------------------|
E|---------------------------------|

Riff 2:

e|---------------------------------|
B|-3-3-----3-3-----3-3-2-2-----2-2-|
G|-----2-2-----2-2---------4-4-----|
D|---------------------------------|
A|---------------------------------|
E|---------------------------------|

----------------------------------------------------
----------------------------------------------------

Referencias:

-Acordes:

   E5    G5     A5    B5    C5   D5
e|-----|-----|-----|-----|-----|-----|
B|-----|-----|-----|-----|-----|-----|
G|--9--|-----|--2--|--4--|--5--|--7--|
D|--9--|--5--|--2--|--4--|--5--|--7--|
A|--7--|--5--|--0--|--2--|--3--|--5--|
E|-----|--3--|-----|-----|-----|-----|

-Los acordes que aparecen con un asterisco (*), se tocan en palm-mute.