Posted by Niko Ramone | File under :





[Intro:]
  A        A/F#    A/D     E        A        A/F#    A/D     E
e----0--------0-------0-------0--------0--------0-------0----0
B---2-2------2-2-----2-2-----0-0------2-2------2-2-----2-2---0
G--2---2----2---2---2---2---1---1----2---2----2---2---2------1  
D-2--------4-------0-------2--------2--------4-------0-------2
A-------------------------------------------------------------
E-------------------------------------------------------------
despues cambia apenas un poco, los dedos en el mismo lugar

[Verso1:]

the last time i...
e---00-------00---------0--0------------------0------
B-----2---------2-----------2---------------0---0----
G------2---------2-----------2------------1------1---
D-2------4-----------0------------------2------------ 
A----------------------------------------------------   
E---------------------------------------------------- 
 saw you i told you 'im like a rolling stone'  and our...
                                    
e------0-------0-0-----------0--0--0---0-0---0---0-
B-----2-2----------2---------2--2--2---2-2---2---0-
G----2---2-----------2-------2--2--2---2-2---2---1-  
D---2-------4----------------0--0--0---0-0---0---2-
A--------------------------------------------------
E--------------------------------------------------
  tears up made that night, made that night so blue   

(La guitarra sigue haciendo el punteo de fondo 
mientras aparece otra tocando:)
                A                          F#
Cause your... friends and your parents are all against me
       D                   E
cause 'im like a rolling stone' 
      A                F#               D          E
Your parents and your brothers and your parents oooeo


[Estribillo:]
            A     F#  D  E        A     F#   D  E
But I dont mind (uo  uoooo)i dont mind (ouoo uoooo)
        A     F#   D  E              A     F#   D  E
i dont mind ( uu  uuuuu)i dont mind (ouoo uoooo)


[Verso1]

Your parents and your brothers and your whole wooorld

[Estribillo]

[Verso2:]

[Guitarra1] (no estoy seguro pero hace algo asi)
e-----------0-----------0------------0--2-1-0--------
B---------2-----------2------------2----------3-2-0--
G-2-2-2-2-----2-----2------2-----2-------------------
A-----------------------------------------------------
D-----------------------------------------------------
E----------------------------------------------------- 
mientras...
[Guitarra2] acordes de 5ta y palm muted
  A A A A A A F#F#F#F#F#F# D D D D D D E E E E E E E

[Guitarra1]  
e-----------0-----------0------------0---------------
B---------2-----------2------------2---2-------------
G-2-2-2-2-----2-----2------2---2-2-------------------
A----------------------------------------------------
D----------------------------------------------------
E----------------------------------------------------
[Guitarra2] acordes de 5 y palm muted
  A A A A A A F#F#F#F#F#F# D D D D D D E 


The last time i... 

/P.M-acordes de 5ta-------------------------------
A A A A A A F#F#F#F#F#F# D D D D D D E E E E E E E  
saw you     i told you  'im like a.. stone' and our 

----------------------------/
A A A A A A F#F#F#F#F#F# D D D D D D E E E E E E E 
tears up    made that..  madethatnight. 

[Estribillo]


-------------------------------------------------
Es una cancion genial.
Parece mas complicada de lo que es, suerte a todoss chauss.
Cualquier consulta: juan-bte@terra.com.ar
Juan de BxTxE    
www.geocities.com/suiciderecord2002
--------------------------------------------------------