Posted by Niko Ramone | File under :




Intro

    ----9-----9-----9-----9-----9-----9-----9-----9-----9-----9----    
    -------8-----8-----8------8-----8-----8-----8-----8-----8-----8
    ---------------------------------------------------------------------
    ---------------------------------------------------------------------           x2
    ---------------------------------------------------------------------
    ---------------------------------------------------------------------
   

    ----11-----11-----11-----9-----11----------------------------------
    ---------------------------------------------------------------------
    ---------------------------------------------------------------------
    ---------------------------------------------------------------------
    ---------------------------------------------------------------------
    ---------------------------------------------------------------------


G#5                                   C#5
Quiero olvidarme de una vez 
             A#5             
que te quiero tanto.
G#5                                  C#5             D#5 - G#5
Quiero quitarme este dolor. 
G#5                                     C#5
Me siento como un chico viejo.
          A#5                          G#5
me aturden los recuerdos.
                  C#5            D#5           
Ya no se que puedo hacer...
                                  G#5/F5     
Para olvidarme de vos


Estribillo 
C#5                           D#5      G#5/F5
Para olvidarme de vos.
C#5                           D#5      G#5/F5
Para olvidarme de vos.
C#5                           D#5      G#5/F5
Para olvidarme de vos.


C#5/D#5


G#5                                   C#5
Quiero olvidarme de una vez 
             A#5             
que te extraño tanto.
G#5                             C#5             D#5 - G#5
Te busco siempre a donde voy
G#5                                     C#5
Camino sólo por las calles
          A#5                          G#5
me siento insoportable.
                  C#5            D#5           
Pensando en que puedo hacer...
                                  G#5/F5     
Para olvidarme de vos.


Estribillo 
C#5                           D#5      G#5/F5
Para olvidarme de vos.
C#5                           D#5      G#5/F5
Para olvidarme de vos.
C#5                           D#5      G#5/F5
Para olvidarme de vos.
C#5                           D#5      G#5/F5
Para olvidarme de vos.
C#5                           D#5      G#5/F5
Para olvidarte...


C#5/D#5
          

              C#5
Será en vano 
                           A#5
igual voy a intentar...
         C#5
arracarte de mi piel
              A#5
para dejar... 
      D#5
dejar de sentirme así  


Intro

    ----9-----9-----9-----9-----9-----9-----9-----9-----9-----9----    
    -------8-----8-----8------8-----8-----8-----8-----8-----8-----8
    ---------------------------------------------------------------------
    ---------------------------------------------------------------------           x2
    ---------------------------------------------------------------------
    ---------------------------------------------------------------------
   

    ----11-----11-----11-----9-----11----------------------------------
    ---------------------------------------------------------------------
    ---------------------------------------------------------------------
    ---------------------------------------------------------------------
    ---------------------------------------------------------------------
    ---------------------------------------------------------------------

Haciendo más o menos este punteito

Así... tan cerca de ti 
Así... tan lejos...
                                      G#5/F5 
Uho Uho Oh... Uho Uho


C#5                           D#5      G#5/F5
Para olvidarme de vos.
C#5                           D#5      G#5/F5
Para olvidarme de vos.
C#5                           D#5      G#5/F5
Para olvidarme de vos.
C#5                           D#5      G#5/F5
Para olvidarme de vos.
C#5                           D#5      G#5/F5
Para olvidarme de vos.
C#5                           D#5      G#5/F5
Para olvidarme de vos.
C#5                           D#5      G#5/F5
Para olvidarme de vos.
C#5          A#5          G#5     
Para olvidarme de vos.