Posted by Niko Ramone | File under :



[Verso:]
A5               E5
Hey! give me a phone call
   F#5                     C#5
I wanna talk to you ¿about old? glory days
      D5                 A5
and please give me your hand
     E5              E5
and back again, and back again

[Estribillo:]
   A5      E5
July is a month of year
  F#5     C#5
July is a month of year so...
D5          A5       
 so easy to, so easy to
E5             E5
 back to be friends

(Repite todo)
   
Solo (mas o menos, el que lo sepa igualito, que lo ponga)
e------------------------------------------------------
B------------------------------------------------------
G-5b-5br-0-3~------3---5-7-10-9--8-7-5-7--7-8-7-10-8-7-
D--------------3-5---5---------------------------------
A------------------------------------------------------
E------------------------------------------------------

e-----------------------------------------------------
B-----------------------------------------------------
G-7-8-7---------7-8-7-10-8-7--7-8-7-10-8-7--7-8-7-----
D-------8-9-10-------------------------------------9~-
A-----------------------------------------------------
E-----------------------------------------------------

[Estribillo:]
   A5      E5
July is a month of year
  F#5     C#5
July is a month of year so...
D5          A5       
 so easy to, so easy to
E5         E5          E5             A5          
 back to be, back to be, back to be friends


En mi opinion suena mejor tocandolos asi:
      A5      E5      F#5      C#5      D5 
e------------------------------------------
B------------------------------------------
G---------------9-------11-------6------7--
D-------7-------9-------11-------6------7--
A-------7-------7--------9-------4------5--
E-------5----------------------------------