Posted by Niko Ramone | File under :



intro: SOL#

E||----------------------------------------------------------------|
B||----------------------------------------------------------------|
G||--/8--6--5----/8------8/10--8--6--8---13--8---------------------|
D||-----------6-----6----------------------------------------------|
A||----------------------------------------------------------------|
E||----------------------------------------------------------------|

E||----------------------------------------------------------------|
B||----------------------------------------------------------------|
G||--8--10--12--10---12--13------10--12--13--12--13--15------------|
D||----------------------------------------------------------------|
A||----------------------------------------------------------------|
E||----------------------------------------------------------------|

la base de este solo va igual que todo el tema: SOL#, DO, DO#, RE#

             SOL#
Si me voy no lo sabrás,
             DO
y si estoy no me verás
             DO#
con la noche yo me iré
             RE#
mi recuerdo dejaré

           SOL#
Solo el seguir sin ti
           DO
me llevó a pensar así,
           DO#
y el dolor de resignar
           RE#
el sabor de tu mirar.


ESTRIBILLO: son las mismas notas pero con distinto tiempo,mas rápido
            que la base común.

            SOL# DO DO#
Y me llevaré...
       RE#
el perfume de tu piel.

SOL#, DO, DO#, RE#

            SOL# DO  DO#
Y me llevaré...
       RE#
en recuerdos el ayer.

SOL#, DO, DO#, RE#

            SOL# DO DO#
Y me llevaré...
       RE#
el perfume de tu piel.

SOL#, DO, DO#, RE#

SOLO: una vuelta con la base común

E||-----------------------------------------------------------------|
B||-----------------------------------------------------------------|
G||-------------------/6--6--6--5--3--5----/8--8--8--6--5--6----8--6|
D||-----------------------------------------------------------------|
A||-/4--4--4-3------------------------------------------------------|
E||-----------6--4--------------------------------------------------|


E||-----------------------------------------------------------------|
B||-----------------------------------------------------------------|
G||---/8--8--8--6--5--6--8--9---------------------------------------|
D||-----------------------------------------------------------------|
A||-----------------------------------------------------------------|
E||-----------------------------------------------------------------|

Y ahora una vuelta como en el estribillo.


             SOL#
Si me voy no lo sabrás,
             DO
y si estoy no me verás
             DO#
con la noche yo me iré
             RE#
mi recuerdo dejaré.

             SOL#
Si la luna brilla hoy,
             DO
si nace de nuevo el sol
             DO#
con la lluvia yo me iré
             RE#
mi recuerdo dejaré.


ESTRIBILLO

DO#
 De un vaso vacío en mil noches
   SOL#
de lunas brillantes bebió la ilusión,
DO                         FA
 y en el fondo latente estará mi dolor...
     LA#
como el agua en el mar.
DO#      RE#
Oh, Oh, Oh, Oh.


con el ritmo del estribillo: SOL#, DO, DO#, RE#

Y me llevaré...
Y me llevaré...
Y me llevaré...