Posted by Niko Ramone | File under :



Intro: Riff 1                          \
e|---------------------------------     |
b|---------------------------------     |
g|---------------------------------     |   x4
D|----------1^0----------0-1^0-----     |
A|-3^0--3^0-----3^0--3^0-------3^0-     |
E|---------------------------------     |
                                        /
Riff 2
e|---------------------------------
b|---------------------------------
g|----------1^0----------0-1^0-----  
D|-3^0--3^0-----3^0--3^0-------3^0-
A|---------------------------------
E|---------------------------------

(sobre Riff 1, palm-mute)
Ya llegó el verano liberando sentidos
caliente la neurona mi cerebro podrido
(sobre Riff 2, palm-mute)
la ciudad transpira, la carne me inspira
(sobre Riff 1, palm-mute)
y todo Buenos Aires es como una parrilla

   E                     F                            Am  xxx Am Am
Y solo veo teta, culo, teta, culo, teta, culo (Morbo - Porno!)
D     E         F     G#  Am Am xxx Am Am
Otro día para enloquecer (Morbo  -  Porno!)
D    E          F     G#  Am Am   Am Am
Otro día para enloquecer (Morbo - Porno!)


Intro x2


Nativas de provincia relamiendose al rojo
obreros en el tren se las garchan de reojo
destino de locura latinoamericano
cambiando frustración por un instante de orgasmo

  E                     F                            Am  xxx Am Am
Y solo veo teta, culo, teta, culo, teta, culo (Morbo - Porno!)
D     E         F     G#  Am Am xxx Am Am
Otro día para enloquecer (Morbo  -  Porno!)
D    E          F     G#  Am Am   Am Am
Otro día para enloquecer (Morbo - Porno!)


[E Eb D C#] x2   [ E Eb D C# C B E ]


En la tele, en la calle, en el kiosco de diarios
todo sexo, todo carne, todo bizarro
No hay escapatoria y dondequiera que vaya
chorrea la zandía bien a punto y helada

  E                     F                            Am  xxx Am Am
Y solo veo tetas, culos, tetas, culos, tetas, culos (Morbo - Porno)
D     E         F     G#  Am Am xxx Am Am
Otro día para enloquecer (Morbo  -  Porno)
D    E          F     G#  Am Am   Am Am
Otro día para enloquecer (Morbo - Porno)

  Fin
e|-----|
b|-----|
g|--4--|
D|--3--|
A|--2--|
E|-----|