Posted by Niko Ramone | File under :



Intro
e-|-------------------------|   X=MUTE
B-|-15--15-------------X-X--|
G-|-14--14--11--12--14-X-X--|
D-|-------------------------|  Todo con base en D
A-|-------------------------|
E-|-------------------------|

Riff
e-|----------------------------|
B-|----------------------------|
G-|-11-12-14-12-11----11-11-11-|
D-|----------------14----------|
A-|----------------------------|
E-|----------------------------|

(USAR ACORDES DE QUINTA)

D
Me gusta bailar, me gusta cantar
                                 G
me gusta escuchar el punk rock cabeza, cabeezaa
D
me gusta cantar, me gusta escuchar,
                              G
me gusta bailar el punk rock cabeza, cabeezaa
  A
y no me vengas con el rock & roll, el blues, el pop, nonono
D                   * G    A
punk rock, punk rock cabeza


* aca la segunda guitarra hace esto
(escuchar bien la cancion)

e-|---------|
B-|---------|
G-|---------|  /deslizar la nota
D-|-5-5/9/9-|
A-|-5-5/9/9-|
E-|-3-3/7/5-|

AGUANTE TUKERA Y EL PUNK ROCK
LUIS_DAMMIT