Posted by Niko Ramone | File under :



Intro:

E----------------6-----------6-------------9-------7-------9-----
B-------------7-----------6------------7-------7--------7----7---
G----------6-------6---7--------7---8----------------------------
D----------------------------------------------------------------
A----------------------------------------------------------------
E----------------------------------------------------------------

E-------6--------------6---------9--------------13--11---9-
B---7-------------6---------7------7--------9-------------
G-6-------6----7----------7-------------/10---------------
D------------------------------------------------------
A------------------------------------------------------
E------------------------------------------------------


El Verso es como sigue:

E----------------6-----------6-------------9-------7-------9---
B-------------7-----------6------------7-------7--------7----7-
G----------6-------6---7--------7---8--------------------------
D--------------------------------------------------------------
A--------------------------------------------------------------
E--------------------------------------------------------------

y se repite durante todo el verso, fijensé cuánto se repite.

En la parte que empieza:

naraná, na naraná, na...

Hace esto:
F#  A#  B