Posted by Niko Ramone | File under :



INTRODUCCION ( C Em F G# G)x2

E:---8------8-7-5----------5-55-7-88-8-7----
B:----8-5-8-------8-8--5-8-----------------
G:-----------------------------------------
D:-----------------------------------------
A:-----------------------------------------
E:-----------------------------------------

E:-8-7-5------8-7-5----------5-4s5-4s5-4s5-4s5-5-8-8-7--
B:-------8-5-8-------8-8--5-8---------------------------
G:------------------------------------------------------
D:------------------------------------------------------
A:------------------------------------------------------
E:------------------------------------------------------



C                       F                     G
Yo ya no discuto mas de todas las cosas que me prometiste
C                       F               G
todo siempre sigue igual siempre una novela triste
C                       F          G
quiero respirar el mar para olvidarme un poco
C                       F        G           C  G
quiero salir a buscar ese sentimiento loco


ESTRIBILLO
C                       Am
A pesar de todo siempre tuve buena suerte
        G#             G                C  G
por que esta noche es Viernes otra vez
C                       Am
A pesar de todo siempre tuve buena suerte
        G#             G                C  G
por que esta noche es Viernes otra vez


C                       F                      G
Yo ya no discuto mas de todas las cosas que me prohibiste
C                       F                      G
todo siempre en vanidad que lo recupero cuando quedo libre
C                  F    G
quiero respirar el mar para olvidarme
C             F     G             C  G
todo llega al final un poco tarde


ESTRIBILLO
C                       Am
A pesar de todo siempre tuve buena suerte
        G#             G                C  G
por que esta noche es Viernes otra vez
C                       Am
A pesar de todo siempre tuve buena suerte
        G#             G                C  G
por que esta noche es Viernes otra vez



C                    Am
A pesar de todoooooo tuve buena suerteeeee
G#             G             C  G
esta noche es Viernes otra vez


SOLO:( C Em F G# G)


E:---8------8-7-5----------5-55-7-88-8-7----
B:----8-5-8-------8-8--5-8-----------------
G:-----------------------------------------
D:-----------------------------------------
A:-----------------------------------------
E:-----------------------------------------

E:-8-7-5------8-7-5----------5-4s5-4s5-4s5-4s5-5-8-8-7--
B:-------8-5-8-------8-8--5-8---------------------------
G:------------------------------------------------------
D:------------------------------------------------------
A:------------------------------------------------------
E:------------------------------------------------------

Lo siguiente lo hace varias veces y finaliza con
la nota que esta entre paréntisis
E:---------------------------------------
B:---6-5--6-5--6-5--6-5--6-5-------(8)---
G:------7----7----7----7----7------------
D:---------------------------------------
A:---------------------------------------
E:---------------------------------------

E:-----------------------------------------------
B:-----------------------------------------------
G:------2-5-5-5-----2-5-5-5------2-5-5-5-5-------
D:--2-5---------2-5----------2-5-----------------
A:-----------------------------------------------
E:-----------------------------------------------