Posted by Niko Ramone | File under :



Tom: C
  
Intro                                     

e|--------------------------------------| 
B|--------------------------------------| 
G|-5-5-5-5-5-5-5-5-----5-5-5-5-5-5-5-5--| 
D|-5-5-5-5-5-5-5-5--4--5-5-5-5-5-5-5-5--| 2x
A|-3-3-3-3-3-3-3-3--4--3-3-3-3-3-3-3-3--| 
E|------------------2-------------------| 


C
Hey Johnny, hey Dee Dee
F          G
Little Tom and Joey
C
You know we're comin' over
F          G
Sweet sweet little Ramona

F
You're getting better and better
C
It's getting easier than ever
F
Hey you kids in the crowd
G
You know you like it when the music's loud.

C
Sweet sweet little Ramona
F               G
she always wants to come over
C
Sweet sweet little Ramona
F               G
I think I'll try and phone her

F
I let her in if you're wondering why
C
Cause she's a spy for the BBI
F
I leter her in and I started to cry
G
And then I knew I wanted to die

A#            F
Oooh, little Ramona.
A#            F
Oooh, little Ramona.
A#            F
Oooh, little Ramona.
A#            C
Oooh......


e|--------------------------------------| 
B|--------------------------------------| 
G|-5-5-5-5-5-5-5-5-----5-5-5-5-5-5-5-5--| 
D|-5-5-5-5-5-5-5-5--4--5-5-5-5-5-5-5-5--| 2x
A|-3-3-3-3-3-3-3-3--4--3-3-3-3-3-3-3-3--| 
E|------------------2-------------------| 


C
Sweet sweet little Ramona
F               G
she always wants to come over
C
Sweet sweet little Ramona
F               G
I think I'll try and phone her

F
I let her in if you're wondering why
C
Cause she's a spy for the BBI
F
I leter her in and I started to cry
G
And then I knew I wanted to die

A#            F
Oooh, little Ramona.
A#            F
Oooh, little Ramona.
A#            F
Oooh, little Ramona.
A#            C
Oooh......


e|--------------------------------------| 
B|--------------------------------------| 
G|-5-5-5-5-5-5-5-5-----5-5-5-5-5-5-5-5--| 
D|-5-5-5-5-5-5-5-5--4--5-5-5-5-5-5-5-5--|
A|-3-3-3-3-3-3-3-3--4--3-3-3-3-3-3-3-3--| 
E|------------------2-------------------|



e|------------------------| 
B|------------------------| 
G|-5-5-5-5-5-5-5-5-----5--| 
D|-5-5-5-5-5-5-5-5--4--5--|
A|-3-3-3-3-3-3-3-3--4--3--| 
E|------------------2-----|