Posted by Niko Ramone | File under :



Intro:
E|-----------------------------------------------|
B|-----------------------------------------------|
G|-7-------------7------------7-----------7------|
D|-7-------------7------------7-----------7------|
A|-5-------------5------------5-----------5------|
E|-----------------------------------------------|

Riff 1:
E|------------------------|
B|------------------------|
G|-5-5-4-4----------------|
D|-5-5-4-4-7-7-5--5--5-7--| (3x)
A|-3-3-2-2-7-7-5--5--5-7--|
E|---------5-5-3--3--3-5--|

E|------------------------|
B|------------------------|
G|--5-5-4-4---------------|
D|--5-5-4-4-7-7--5--------|
A|--3-3-2-2-7-7--5--------|
E|----------5-5--3--------|

Riff - Verso:
E|-----------------------------------------|
B|-----------------------------------------|
G|-----------------------------------------|
D|-5-5-5-5-5-5-5-5-5-5-5-------------------|
A|-5-5-5-5-5-5-5-5-5-5-5-0-2-3-2-0---------|
E|-3-3-3-3-3-3-3-3-3-3-3-------------------|

Riff coro:
E|-------------------|
B|-------------------|
G|-4/5-5-5-4/5-5-5---|
D|-4/5-5-5-4/5-5-5---| (2x)
A|-2/3-3-3-2/3-3-3---|
E|-------------------|

E|-------------------|
B|-------------------|
G|-6/7-7-7-6/7-7-7---|
D|-6/7-7-7-6/7-7-7---| (2x)
A|-4/5-5-5-4/5-5-5---|
E|-------------------|

Riff 2:
E|-------10-9-7-------|
B|--------------------|
G|-9------------9-----|
D|--------------------|
A|--------------------|
E|--------------------|

Riff 3:
E|----------------------------------------------------------------|
B|----------------------------------------------------------------|
G|9-9-9-9-9-9-9-9-------------------------------------------------|
D|9-9-9-9-9-9-9-9-5-5-5-5-5-5-5-5-6/7-7-7-6/7-7-7-6/7-7-7-6/7-7-7-|
A|7-7-7-7-7-7-7-7-5-5-5-5-5-5-5-5-6/7-7-7-6/7-7-7-6/7-7-7-6/7-7-7-|
E|----------------3-3-3-3-3-3-3-3-4/5-5-5-4/5-5-5-4/5-5-5-4/5-5-5-|

RIff 4:
E|------------------------|
B|------------------------|
G|-5-5-4-4----------------|
D|-5-5-4-4-7-7-5--5--5-7--|
A|-3-3-2-2-7-7-5--5--5-7--|
E|---------5-5-3--3--3-5--|

(Intro)

(Riff 1)

Verso:
(Riff - Verso 4x )
I don't wanna holiday in the sun
I wanna go to new Belsen
I wanna see some history
'Cause now i got a reasonable economy

coro:
(Riff coro 2x)
Now I got a reason, now I got a reason
Now I got a reason and I'm still waiting
Now I got a reason
Now I got reason to be waiting
The Berlin Wall

(Riff 1)

Verso 2:
(Riff - Verso 4x )
Sensurround sound in a two inch wall
Well I was waiting for the communist call
I didn't ask for sunshine and I got World War three
I'm looking over the wall and they're looking at me

coro:
(Riff coro 2x)
Now I got a reason, now I got a reason
Now I got a reason and I'm still waiting
Now I got a reason
Now I got reason to be waiting
The Berlin Wall

(Riff 1)

Intertlúdio:
(Riff 2 - 4x)
Well they're staring all night and
They're staring all day
I had no reason to be here at all
But now i gotta reason it's no real reason
And I'm waiting at the Berlin Wall
(Riff 3)
Gotta go over the Berlin Wall
I don't understand it....
I gotta go over the wall
I don't understand this bit at all....

(Solo)

(Riff coro 2x)
Claustropfobia there's too much paranoia
There's too many closets I went in before
And now I gotta reason,
It's no real reason to be waiting
The Berlin Wall

(Riff 4 - 8x)
Gotta go over the Berlin Wall
I don't understand it....
I gotta go over the wall
I don't understand this bit at all...

(Riff 1)