Posted by Niko Ramone | File under :


(se toca con acordes de quinta)

INTRO: E ( E-E  G#-G#  A-A  B-B) x 2  E

e|--------------------------------------|
B|-9-10-12-10--9-10-12-10--------------|
G|-9-9--9---9--9--9--9-9---------------|
D|--------------------------------------|
A|--------------------------------------|
E|--------------------------------------|

E                    A
Acércate solo un instante
E                  B
escúchame si lo quieres hacer
E                    E
toma unos tragos y quizás  entonces
                        B        D-D
tal vez me puedas comprender.

La nueva raza está naciendo...

A        B        E
Podrán pasar mil años
A      B         E
Veras muchos caer
A       B        E
pero si nos juntamos
        B          E
no nos van a detener.      x 2

Intro

Hay que agitar pronto hay que agitar...


No creas que nos han controlado...


Podran pasar mil años... x 2

Intro
e|-------7-7---|             |-----------------------------------|
B|-------7-7---|             |--------9-10-12-10--9-10-12-10---|
G|-9(10)-------| x7          |--------9-9--9---9--9--9--9-9-----|
D|-------------|             |-----------------------------------|
A|-------------|              |-----------------------------------|
E|-------------|               |-----------------------------------|


D                        A
Volando bajo un cielo azul
  E                 B
Cruzando del norte hacia el sur
      D         A            B
Sólo dónde las águilas se atreven, sólo las águilas.


Podrán pasar mil años...