Posted by Niko Ramone | File under :


Intro 1ª guitarra limpia 

e|-------------------------------------------------------------------|
B|-------------------------------------------------------------------|
G|-------------------------------------------------------------------|
D|------------------------------------------------0-2----------------|
A|------------------------------------2-2-2-2-2-2--------------------|
E|--2-2-2-2-2-2-2-2--5-5-5-5-5-5-5-5-------------------2-2-2-2-2-2---|


E          F#m         D              E
Las cosas son simples, o est s conmigo o te vas.
                   F#m        D                 E
Las cosas son muy simples, o est s conmigo o te vas.

   E                F#m
Yo no voy a morirme por perderte,
        D                   E
unas cuantas botellas y ya te olvidé
                   F#m
y no voy a morirme por tu amor,
    D              E
un par de cervezas y se acabó.
E   D   F#m     E
AH, AH, OH, OH, OH, OH, OH (BIS)
A                             D   E  A
Siempre creí que estabamos bien
                D
pero ahora veo que...
    F#m         E
no te pudiste aguantar
       D               F#m          E
porque sos muy sucia y no te pudiste aguantar.
D      E               A
Casi vendo mi alma al diablo
D       E            A
para darte el mundo entero,
D          E            A
y ahora todo ya se ha terminado
      D    E
que pena, nena,
        A          D   E
Aun te quiero x  4


    C#m        E          D        x 2            C#m        C#m          C#m

e|---------------------------------------|----------------------------------------|
B|---------------------------------------|----------------------------------------|
G|------6-6---------8-8--------7-7-------|--------6-6---------6-6---------6-6-----|
D|--6-6-----6---8-8----8---7-7-----7-----|----6-6-----6---6-6-----6---6-6-----6---|
A|---------------------------------------|----------------------------------------|
E|---------------------------------------|----------------------------------------|

A                          D    A
Siempre creí que estabamos bien
                D
pero ahora veo que...
    F#m         E
no te pudiste aguantar
        D            F#m               E
porque sos muy puta y no te pudiste aguantar.
D     E            A
Bueno, no quería decírtelo,
D      E          A
pero todo este tiempo
D     E            A
yo estuve con tu mejor amiga,
    D       E
que pena, nena.
           A       D   E
Aun te quiero x 4